[Midori]'s diary

125961  Link to this entry 
Written about Saturday 2009-10-31
Written: (4721 days ago)

Derek and I talked last night, and I finally got my closure. We were civil. It feels so good to have this relief that I can go to sleep at night, not worried. He told me Cassidy was a terrible girlfriend and that I still rocked. Hehehe, That's all I needed.

So anyway, I got a camera folks. I'll try to get some pics tonight.

123510  Link to this entry 
Written about Friday 2009-07-03
Written: (4842 days ago)

G-----18-----16-----14-----13----|-----11----11----13----13---|
D---14--14-14--14-14--14-14--14--|----9--9--9--9--9--9--9--9--|
A--0------0------0------0--------|--11----11----11----11------|
E--------------------------------|----------------------------|

G-----14-----13-----11-----9----|--------------------------------|
D---11--11-11--11-11--11-11-11--|-----11-----10-----11-----11----|
A--9------9------9------9-------|---11--11-11--11-11--11-11--11--|
E-------------------------------|--9------9------9------9--------|


Bass Chorus ending:

G-----|-----|
D-----|-----|
A-----|-----|
E--0--|--0--|

 The logged in version 

News about Elfpack
Help - How does Elfpack work?

Get $10 worth of Bitcoin/Ethereum for free (you have to buy cryptos for $100 to get it) and support Elfpack!